Primary Planet


スポンサーサイト

上記の広告は1ヶ月以上更新のないブログに表示されています。
新しい記事を書く事で広告が消せます。

投稿日時 : --年--月--日(--) --:--


ギター天国

うわ~。海外にはこんな素敵なサイトがあるのですね。ギター弾きにはたまらないサイトではないでしょうか。「著作権とかどうなっているのかな?」という点が気にはなりますが、まあ海外のサイトなので良しとしましょう (爆)。

サイトのあちこちを見てみると、やはり海外のギタリストがコピーしたい曲というのは日本人のそれと結構共通しているような気がします。音楽は世界の言葉、ってところでしょうか。おっ、The Beatles の Blackbird を発見! ふむふむ…

確か昔のインタビューで、Blackbird を作曲している時に弾いていたギターは1弦が切れてしまっていてなかった、とポールが言っていた記憶があります。ということは、このタブ譜はやや正確性に欠けるのでは、とか。(^o^) 5小節目以降は、

  #5
      C       A7/C#   D       B7/D#       Em              Cm/Eb
E |-----------------------------------|-----------------------------------|
B |---5--(5)--8-------7--(7)--10------|---8-----8---8-----8-----8---8-----|
G |-------0-------0-------0-------0---|-------0-------0-------0-------0---|
D |-----------------------------------|-----------------------------------|
A |---3-------4-------5-------6-------|---7-------7-------6-------6-------|
E |-----------------------------------|-----------------------------------|
      +   .   +   .   +   .   +   .       +   .   +   .   +   .   +   .
      Take these broken wings and learn to fly
      Take these sunken eyes and learn to see  (notes in () not played 2nd verse)


  #7
  3/2 D       A7/C#   C                Cm
E |----------------------------------------------------|
B |---7-------8-------5-----5---5------4-----4---4-----|
G |-------0-------0-------0-------0--------0-------0---|
D |----------------------------------------------------|
A |---5-------4-------3-------3--------3-------3-------|
E |----------------------------------------------------|
      +       .       +       .        +       .
      All     your    life
      All     your    life

という感じでポール自身は弾いていたはずです。ま、どっちでもいい話ですが 汗。こういうことを言うのが日本のギタリストなんですよね~(違

投稿日時 : 2005年08月19日(金) 23:22


コメント

「ROCKオヤジ!!」管理人sat
ビートルズネタ書きました。もしお時間ありましたら遊びに来て下さい!
(blackbirdネタ)
2005年08月21日 (日) 23:38
URL
編集

コメントの投稿

(N)
… サイトを持っている人は是非
(C)
… 半角英数4文字以上。編集するかもしれない時は必須。

トラックバック

三つ子の魂 小僧の魂
ギターというと私にはもう弾けるだけでいいなぁ♪楽しそうだなぁ♪というのがあるのだが、Primary PlanetのNoriyaさんの「ギター天国」を読んでいたら、耳に流れてきたナンバーがある。「ギター・ジャンボリー」チャック・ベリーに始まって、ジミヘン、ジャック・ブルース
2005年08月31日 (水) 11:39
sugar pot
本記事へのトラックバック URL
http://primaryplanet.blog5.fc2.com/tb.php/91-724c9f9f


Search Form

上記広告は1ヶ月以上更新のないブログに表示されています。新しい記事を書くことで広告を消せます。